ISO-10303-21;
HEADER;
FILE_DESCRIPTION (( 'STEP AP214' ),
    '1' );
FILE_NAME ('1046-001.STEP',
    '2024-05-16T12:06:30',
    ( '' ),
    ( '' ),
    'SwSTEP 2.0',
    'SolidWorks 2022',
    '' );
FILE_SCHEMA (( 'AUTOMOTIVE_DESIGN' ));
ENDSEC;

DATA;
#1 = DIRECTION ( 'NONE',  ( -1.000000000000000000, 0.000000000000000000, -0.000000000000000000 ) ) ;
#2 = COLOUR_RGB ( '',0.9647058823529411908, 0.8235294117647058432, 0.9372549019607843146 ) ;
#3 = PLANE ( 'NONE',  #37 ) ;
#4 =( NAMED_UNIT ( * ) SI_UNIT ( $, .STERADIAN. ) SOLID_ANGLE_UNIT ( ) );
#5 = ORIENTED_EDGE ( 'NONE', *, *, #111, .T. ) ;
#6 = DIRECTION ( 'NONE',  ( -0.000000000000000000, -0.000000000000000000, -1.000000000000000000 ) ) ;
#7 = PRESENTATION_STYLE_ASSIGNMENT (( #204 ) ) ;
#8 = VERTEX_POINT ( 'NONE', #105 ) ;
#9 = LINE ( 'NONE', #128, #102 ) ;
#10 = DIRECTION ( 'NONE',  ( 0.000000000000000000, -1.000000000000000000, 0.000000000000000000 ) ) ;
#11 = FACE_OUTER_BOUND ( 'NONE', #116, .T. ) ;
#12 = UNCERTAINTY_MEASURE_WITH_UNIT (LENGTH_MEASURE( 1.000000000000000082E-05 ), #26, 'distance_accuracy_value', 'NONE');
#13 = PRESENTATION_LAYER_ASSIGNMENT (  '', '', ( #27 ) ) ;
#14 = VECTOR ( 'NONE', #1, 1000.000000000000000 ) ;
#15 =( NAMED_UNIT ( * ) PLANE_ANGLE_UNIT ( ) SI_UNIT ( $, .RADIAN. ) );
#16 = VERTEX_POINT ( 'NONE', #108 ) ;
#17 = ADVANCED_FACE ( 'NONE', ( #206 ), #39, .F. ) ;
#18 = CARTESIAN_POINT ( 'NONE',  ( 900.0000000000000000, 0.000000000000000000, 3.000000000000000000 ) ) ;
#19 =( GEOMETRIC_REPRESENTATION_CONTEXT ( 3 ) GLOBAL_UNCERTAINTY_ASSIGNED_CONTEXT ( ( #77 ) ) GLOBAL_UNIT_ASSIGNED_CONTEXT ( ( #153, #52, #34 ) ) REPRESENTATION_CONTEXT ( 'NONE', 'WORKASPACE' ) );
#20 =( NAMED_UNIT ( * ) PLANE_ANGLE_UNIT ( ) SI_UNIT ( $, .RADIAN. ) );
#21 =( LENGTH_UNIT ( ) NAMED_UNIT ( * ) SI_UNIT ( .MILLI., .METRE. ) );
#22 = CARTESIAN_POINT ( 'NONE',  ( 0.000000000000000000, 0.000000000000000000, 0.000000000000000000 ) ) ;
#23 = CARTESIAN_POINT ( 'NONE',  ( 1000.000000000000000, 0.000000000000000000, 0.000000000000000000 ) ) ;
#24 = UNCERTAINTY_MEASURE_WITH_UNIT (LENGTH_MEASURE( 1.000000000000000082E-05 ), #30, 'distance_accuracy_value', 'NONE');
#25 = EDGE_CURVE ( 'NONE', #33, #66, #9, .T. ) ;
#26 =( LENGTH_UNIT ( ) NAMED_UNIT ( * ) SI_UNIT ( .MILLI., .METRE. ) );
#27 = STYLED_ITEM ( 'NONE', ( #121 ), #161 ) ;
#28 = ORIENTED_EDGE ( 'NONE', *, *, #193, .F. ) ;
#29 = EDGE_LOOP ( 'NONE', ( #109, #224, #70, #209 ) ) ;
#30 =( LENGTH_UNIT ( ) NAMED_UNIT ( * ) SI_UNIT ( .MILLI., .METRE. ) );
#31 = VERTEX_POINT ( 'NONE', #18 ) ;
#32 = DIRECTION ( 'NONE',  ( 1.000000000000000000, 0.000000000000000000, 0.000000000000000000 ) ) ;
#33 = VERTEX_POINT ( 'NONE', #71 ) ;
#34 =( NAMED_UNIT ( * ) SI_UNIT ( $, .STERADIAN. ) SOLID_ANGLE_UNIT ( ) );
#35 = FILL_AREA_STYLE_COLOUR ( '', #138 ) ;
#36 = FILL_AREA_STYLE_COLOUR ( '', #88 ) ;
#37 = AXIS2_PLACEMENT_3D ( 'NONE', #42, #84, #104 ) ;
#38 = PRODUCT_DEFINITION ( 'UNKNOWN', '', #134, #157 ) ;
#39 = PLANE ( 'NONE',  #203 ) ;
#40 = CARTESIAN_POINT ( 'NONE',  ( 1000.000000000000000, 10.00000000000000000, 3.000000000000000000 ) ) ;
#41 = MANIFOLD_SOLID_BREP ( 'HI_SSCH 10X3X1000 CU/SN 0348900000', #49 ) ;
#42 = CARTESIAN_POINT ( 'NONE',  ( 900.0000000000000000, 10.00000000000000000, 10.00000000000000000 ) ) ;
#43 = PRODUCT_RELATED_PRODUCT_CATEGORY ( 'part', '', ( #149 ) ) ;
#44 = FILL_AREA_STYLE_COLOUR ( '', #125 ) ;
#45 = ORIENTED_EDGE ( 'NONE', *, *, #55, .F. ) ;
#46 = FILL_AREA_STYLE_COLOUR ( '', #2 ) ;
#47 = ORIENTED_EDGE ( 'NONE', *, *, #122, .T. ) ;
#48 = CARTESIAN_POINT ( 'NONE',  ( 1000.000000000000000, 0.000000000000000000, 0.000000000000000000 ) ) ;
#49 = CLOSED_SHELL ( 'NONE', ( #17, #180, #161, #113, #80, #159 ) ) ;
#50 =( LENGTH_UNIT ( ) NAMED_UNIT ( * ) SI_UNIT ( .MILLI., .METRE. ) );
#51 = ORIENTED_EDGE ( 'NONE', *, *, #103, .T. ) ;
#52 =( NAMED_UNIT ( * ) PLANE_ANGLE_UNIT ( ) SI_UNIT ( $, .RADIAN. ) );
#53 = LINE ( 'NONE', #133, #185 ) ;
#54 = VECTOR ( 'NONE', #75, 1000.000000000000000 ) ;
#55 = EDGE_CURVE ( 'NONE', #205, #33, #165, .T. ) ;
#56 = CARTESIAN_POINT ( 'NONE',  ( 1000.000000000000000, 0.000000000000000000, 0.000000000000000000 ) ) ;
#57 = DIRECTION ( 'NONE',  ( 1.000000000000000000, 0.000000000000000000, -0.000000000000000000 ) ) ;
#58 = EDGE_CURVE ( 'NONE', #184, #66, #53, .T. ) ;
#59 =( GEOMETRIC_REPRESENTATION_CONTEXT ( 3 ) GLOBAL_UNCERTAINTY_ASSIGNED_CONTEXT ( ( #177 ) ) GLOBAL_UNIT_ASSIGNED_CONTEXT ( ( #50, #148, #130 ) ) REPRESENTATION_CONTEXT ( 'NONE', 'WORKASPACE' ) );
#60 = APPLICATION_CONTEXT ( 'automotive_design' ) ;
#61 = FACE_OUTER_BOUND ( 'NONE', #147, .T. ) ;
#62 = EDGE_LOOP ( 'NONE', ( #51, #221, #222, #169 ) ) ;
#63 = DIRECTION ( 'NONE',  ( 0.000000000000000000, -0.000000000000000000, 1.000000000000000000 ) ) ;
#64 = VECTOR ( 'NONE', #10, 1000.000000000000000 ) ;
#65 = SURFACE_STYLE_USAGE ( .BOTH. , #215 ) ;
#66 = VERTEX_POINT ( 'NONE', #170 ) ;
#67 = LINE ( 'NONE', #190, #64 ) ;
#68 = ORIENTED_EDGE ( 'NONE', *, *, #122, .F. ) ;
#69 = CARTESIAN_POINT ( 'NONE',  ( 900.0000000000000000, 10.00000000000000000, 3.000000000000000000 ) ) ;
#70 = ORIENTED_EDGE ( 'NONE', *, *, #140, .F. ) ;
#71 = CARTESIAN_POINT ( 'NONE',  ( 900.0000000000000000, 10.00000000000000000, 0.000000000000000000 ) ) ;
#72 = SURFACE_SIDE_STYLE ('',( #146 ) ) ;
#73 = DIRECTION ( 'NONE',  ( -0.000000000000000000, -1.000000000000000000, -0.000000000000000000 ) ) ;
#74 = APPLICATION_PROTOCOL_DEFINITION ( 'draft international standard', 'automotive_design', 1998, #60 ) ;
#75 = DIRECTION ( 'NONE',  ( 1.000000000000000000, -0.000000000000000000, 0.000000000000000000 ) ) ;
#76 = MECHANICAL_DESIGN_GEOMETRIC_PRESENTATION_REPRESENTATION (  '', ( #230 ), #186 ) ;
#77 = UNCERTAINTY_MEASURE_WITH_UNIT (LENGTH_MEASURE( 1.000000000000000082E-05 ), #153, 'distance_accuracy_value', 'NONE');
#78 = EDGE_CURVE ( 'NONE', #8, #16, #188, .T. ) ;
#79 = CARTESIAN_POINT ( 'NONE',  ( 1000.000000000000000, 10.00000000000000000, 0.000000000000000000 ) ) ;
#80 = ADVANCED_FACE ( 'NONE', ( #154 ), #227, .F. ) ;
#81 = CARTESIAN_POINT ( 'NONE',  ( 900.0000000000000000, 0.000000000000000000, 10.00000000000000000 ) ) ;
#82 = LINE ( 'NONE', #118, #139 ) ;
#83 = ORIENTED_EDGE ( 'NONE', *, *, #55, .T. ) ;
#84 = DIRECTION ( 'NONE',  ( 1.000000000000000000, 0.000000000000000000, -0.000000000000000000 ) ) ;
#85 = FILL_AREA_STYLE ('',( #36 ) ) ;
#86 = CARTESIAN_POINT ( 'NONE',  ( 1000.000000000000000, 10.00000000000000000, 3.000000000000000000 ) ) ;
#87 = ORIENTED_EDGE ( 'NONE', *, *, #58, .T. ) ;
#88 = COLOUR_RGB ( '',1.000000000000000000, 1.000000000000000000, 1.000000000000000000 ) ;
#89 = SURFACE_STYLE_USAGE ( .BOTH. , #72 ) ;
#90 = EDGE_CURVE ( 'NONE', #33, #223, #110, .T. ) ;
#91 = DIRECTION ( 'NONE',  ( 0.000000000000000000, 1.000000000000000000, 0.000000000000000000 ) ) ;
#92 = ORIENTED_EDGE ( 'NONE', *, *, #129, .F. ) ;
#93 = STYLED_ITEM ( 'NONE', ( #7 ), #41 ) ;
#94 = PRESENTATION_LAYER_ASSIGNMENT (  '', '', ( #230 ) ) ;
#95 = EDGE_LOOP ( 'NONE', ( #83, #214, #68, #123 ) ) ;
#96 = FILL_AREA_STYLE ('',( #44 ) ) ;
#97 = VECTOR ( 'NONE', #73, 1000.000000000000000 ) ;
#98 = VECTOR ( 'NONE', #182, 1000.000000000000000 ) ;
#99 = SURFACE_STYLE_FILL_AREA ( #183 ) ;
#100 = FACE_OUTER_BOUND ( 'NONE', #164, .T. ) ;
#101 = DIRECTION ( 'NONE',  ( 0.000000000000000000, -0.000000000000000000, -1.000000000000000000 ) ) ;
#102 = VECTOR ( 'NONE', #187, 1000.000000000000000 ) ;
#103 = EDGE_CURVE ( 'NONE', #184, #223, #156, .T. ) ;
#104 = DIRECTION ( 'NONE',  ( -0.000000000000000000, 0.000000000000000000, -1.000000000000000000 ) ) ;
#105 = CARTESIAN_POINT ( 'NONE',  ( 1000.000000000000000, 10.00000000000000000, 3.000000000000000000 ) ) ;
#106 = SURFACE_SIDE_STYLE ('',( #226 ) ) ;
#107 = SHAPE_DEFINITION_REPRESENTATION ( #217, #176 ) ;
#108 = CARTESIAN_POINT ( 'NONE',  ( 1000.000000000000000, 0.000000000000000000, 3.000000000000000000 ) ) ;
#109 = ORIENTED_EDGE ( 'NONE', *, *, #111, .F. ) ;
#110 = LINE ( 'NONE', #192, #207 ) ;
#111 = EDGE_CURVE ( 'NONE', #205, #8, #173, .T. ) ;
#112 =( GEOMETRIC_REPRESENTATION_CONTEXT ( 3 ) GLOBAL_UNCERTAINTY_ASSIGNED_CONTEXT ( ( #114 ) ) GLOBAL_UNIT_ASSIGNED_CONTEXT ( ( #21, #20, #131 ) ) REPRESENTATION_CONTEXT ( 'NONE', 'WORKASPACE' ) );
#113 = ADVANCED_FACE ( 'NONE', ( #11 ), #137, .F. ) ;
#114 = UNCERTAINTY_MEASURE_WITH_UNIT (LENGTH_MEASURE( 1.000000000000000082E-05 ), #21, 'distance_accuracy_value', 'NONE');
#115 = AXIS2_PLACEMENT_3D ( 'NONE', #79, #120, #101 ) ;
#116 = EDGE_LOOP ( 'NONE', ( #141, #45, #5, #28 ) ) ;
#117 = SURFACE_STYLE_USAGE ( .BOTH. , #198 ) ;
#118 = CARTESIAN_POINT ( 'NONE',  ( 1000.000000000000000, 0.000000000000000000, 3.000000000000000000 ) ) ;
#119 = MECHANICAL_DESIGN_GEOMETRIC_PRESENTATION_REPRESENTATION (  '', ( #208 ), #19 ) ;
#120 = DIRECTION ( 'NONE',  ( 0.000000000000000000, -1.000000000000000000, 0.000000000000000000 ) ) ;
#121 = PRESENTATION_STYLE_ASSIGNMENT (( #65 ) ) ;
#122 = EDGE_CURVE ( 'NONE', #31, #223, #220, .T. ) ;
#123 = ORIENTED_EDGE ( 'NONE', *, *, #225, .F. ) ;
#124 = LINE ( 'NONE', #199, #14 ) ;
#125 = COLOUR_RGB ( '',0.9647058823529411908, 0.8235294117647058432, 0.9372549019607843146 ) ;
#126 = APPLICATION_CONTEXT ( 'automotive_design' ) ;
#127 = CARTESIAN_POINT ( 'NONE',  ( 900.0000000000000000, 10.00000000000000000, 10.00000000000000000 ) ) ;
#128 = CARTESIAN_POINT ( 'NONE',  ( 1000.000000000000000, 10.00000000000000000, 0.000000000000000000 ) ) ;
#129 = EDGE_CURVE ( 'NONE', #16, #184, #82, .T. ) ;
#130 =( NAMED_UNIT ( * ) SI_UNIT ( $, .STERADIAN. ) SOLID_ANGLE_UNIT ( ) );
#131 =( NAMED_UNIT ( * ) SI_UNIT ( $, .STERADIAN. ) SOLID_ANGLE_UNIT ( ) );
#132 = PRESENTATION_STYLE_ASSIGNMENT (( #89 ) ) ;
#133 = CARTESIAN_POINT ( 'NONE',  ( 1000.000000000000000, 0.000000000000000000, 0.000000000000000000 ) ) ;
#134 = PRODUCT_DEFINITION_FORMATION_WITH_SPECIFIED_SOURCE ( 'ANY', '', #149, .NOT_KNOWN. ) ;
#135 = CARTESIAN_POINT ( 'NONE',  ( 1000.000000000000000, 10.00000000000000000, 0.000000000000000000 ) ) ;
#136 = DIRECTION ( 'NONE',  ( 0.000000000000000000, 0.000000000000000000, 1.000000000000000000 ) ) ;
#137 = PLANE ( 'NONE',  #115 ) ;
#138 = COLOUR_RGB ( '',0.8000000000000000444, 0.8117647058823529438, 0.8000000000000000444 ) ;
#139 = VECTOR ( 'NONE', #144, 1000.000000000000000 ) ;
#140 = EDGE_CURVE ( 'NONE', #16, #31, #124, .T. ) ;
#141 = ORIENTED_EDGE ( 'NONE', *, *, #25, .F. ) ;
#142 = PLANE ( 'NONE',  #168 ) ;
#143 = CARTESIAN_POINT ( 'NONE',  ( 1000.000000000000000, 0.000000000000000000, 0.000000000000000000 ) ) ;
#144 = DIRECTION ( 'NONE',  ( -0.000000000000000000, 0.000000000000000000, -1.000000000000000000 ) ) ;
#145 = ORIENTED_EDGE ( 'NONE', *, *, #140, .T. ) ;
#146 = SURFACE_STYLE_FILL_AREA ( #85 ) ;
#147 = EDGE_LOOP ( 'NONE', ( #145, #47, #200, #92 ) ) ;
#148 =( NAMED_UNIT ( * ) PLANE_ANGLE_UNIT ( ) SI_UNIT ( $, .RADIAN. ) );
#149 = PRODUCT ( '1046-001', '1046-001', '', ( #155 ) ) ;
#150 = FILL_AREA_STYLE ('',( #35 ) ) ;
#151 = DIRECTION ( 'NONE',  ( 0.000000000000000000, 0.000000000000000000, 1.000000000000000000 ) ) ;
#152 = DIRECTION ( 'NONE',  ( -1.000000000000000000, 0.000000000000000000, -0.000000000000000000 ) ) ;
#153 =( LENGTH_UNIT ( ) NAMED_UNIT ( * ) SI_UNIT ( .MILLI., .METRE. ) );
#154 = FACE_OUTER_BOUND ( 'NONE', #62, .T. ) ;
#155 = PRODUCT_CONTEXT ( 'NONE', #60, 'mechanical' ) ;
#156 = LINE ( 'NONE', #23, #163 ) ;
#157 = PRODUCT_DEFINITION_CONTEXT ( 'detailed design', #126, 'design' ) ;
#158 = PLANE ( 'NONE',  #175 ) ;
#159 = ADVANCED_FACE ( 'NONE', ( #231 ), #3, .F. ) ;
#160 = CARTESIAN_POINT ( 'NONE',  ( 1000.000000000000000, 0.000000000000000000, 3.000000000000000000 ) ) ;
#161 = ADVANCED_FACE ( 'NONE', ( #100 ), #158, .T. ) ;
#162 =( NAMED_UNIT ( * ) SI_UNIT ( $, .STERADIAN. ) SOLID_ANGLE_UNIT ( ) );
#163 = VECTOR ( 'NONE', #228, 1000.000000000000000 ) ;
#164 = EDGE_LOOP ( 'NONE', ( #87, #178, #196, #201 ) ) ;
#165 = LINE ( 'NONE', #127, #213 ) ;
#166 = CARTESIAN_POINT ( 'NONE',  ( 900.0000000000000000, 0.000000000000000000, 0.000000000000000000 ) ) ;
#167 = AXIS2_PLACEMENT_3D ( 'NONE', #56, #136, #57 ) ;
#168 = AXIS2_PLACEMENT_3D ( 'NONE', #160, #232, #63 ) ;
#169 = ORIENTED_EDGE ( 'NONE', *, *, #58, .F. ) ;
#170 = CARTESIAN_POINT ( 'NONE',  ( 1000.000000000000000, 10.00000000000000000, 0.000000000000000000 ) ) ;
#171 = LINE ( 'NONE', #135, #218 ) ;
#172 = CARTESIAN_POINT ( 'NONE',  ( 1000.000000000000000, 10.00000000000000000, 3.000000000000000000 ) ) ;
#173 = LINE ( 'NONE', #40, #54 ) ;
#174 = MECHANICAL_DESIGN_GEOMETRIC_PRESENTATION_REPRESENTATION (  '', ( #93 ), #112 ) ;
#175 = AXIS2_PLACEMENT_3D ( 'NONE', #48, #202, #219 ) ;
#176 = ADVANCED_BREP_SHAPE_REPRESENTATION ( '1046-001', ( #41, #191 ), #59 ) ;
#177 = UNCERTAINTY_MEASURE_WITH_UNIT (LENGTH_MEASURE( 1.000000000000000082E-05 ), #50, 'distance_accuracy_value', 'NONE');
#178 = ORIENTED_EDGE ( 'NONE', *, *, #193, .T. ) ;
#179 =( NAMED_UNIT ( * ) PLANE_ANGLE_UNIT ( ) SI_UNIT ( $, .RADIAN. ) );
#180 = ADVANCED_FACE ( 'NONE', ( #61 ), #142, .F. ) ;
#181 = SURFACE_STYLE_FILL_AREA ( #96 ) ;
#182 = DIRECTION ( 'NONE',  ( -0.000000000000000000, -0.000000000000000000, -1.000000000000000000 ) ) ;
#183 = FILL_AREA_STYLE ('',( #46 ) ) ;
#184 = VERTEX_POINT ( 'NONE', #143 ) ;
#185 = VECTOR ( 'NONE', #91, 1000.000000000000000 ) ;
#186 =( GEOMETRIC_REPRESENTATION_CONTEXT ( 3 ) GLOBAL_UNCERTAINTY_ASSIGNED_CONTEXT ( ( #24 ) ) GLOBAL_UNIT_ASSIGNED_CONTEXT ( ( #30, #15, #162 ) ) REPRESENTATION_CONTEXT ( 'NONE', 'WORKASPACE' ) );
#187 = DIRECTION ( 'NONE',  ( 1.000000000000000000, 0.000000000000000000, 0.000000000000000000 ) ) ;
#188 = LINE ( 'NONE', #172, #97 ) ;
#189 = DIRECTION ( 'NONE',  ( 0.000000000000000000, 0.000000000000000000, -1.000000000000000000 ) ) ;
#190 = CARTESIAN_POINT ( 'NONE',  ( 900.0000000000000000, 10.00000000000000000, 3.000000000000000000 ) ) ;
#191 = AXIS2_PLACEMENT_3D ( 'NONE', #22, #151, #32 ) ;
#192 = CARTESIAN_POINT ( 'NONE',  ( 900.0000000000000000, 10.00000000000000000, 0.000000000000000000 ) ) ;
#193 = EDGE_CURVE ( 'NONE', #66, #8, #171, .T. ) ;
#194 = PRESENTATION_LAYER_ASSIGNMENT (  '', '', ( #93 ) ) ;
#195 = MECHANICAL_DESIGN_GEOMETRIC_PRESENTATION_REPRESENTATION (  '', ( #27 ), #197 ) ;
#196 = ORIENTED_EDGE ( 'NONE', *, *, #78, .T. ) ;
#197 =( GEOMETRIC_REPRESENTATION_CONTEXT ( 3 ) GLOBAL_UNCERTAINTY_ASSIGNED_CONTEXT ( ( #12 ) ) GLOBAL_UNIT_ASSIGNED_CONTEXT ( ( #26, #179, #4 ) ) REPRESENTATION_CONTEXT ( 'NONE', 'WORKASPACE' ) );
#198 = SURFACE_SIDE_STYLE ('',( #99 ) ) ;
#199 = CARTESIAN_POINT ( 'NONE',  ( 1000.000000000000000, 0.000000000000000000, 3.000000000000000000 ) ) ;
#200 = ORIENTED_EDGE ( 'NONE', *, *, #103, .F. ) ;
#201 = ORIENTED_EDGE ( 'NONE', *, *, #129, .T. ) ;
#202 = DIRECTION ( 'NONE',  ( 1.000000000000000000, -0.000000000000000000, 0.000000000000000000 ) ) ;
#203 = AXIS2_PLACEMENT_3D ( 'NONE', #86, #189, #152 ) ;
#204 = SURFACE_STYLE_USAGE ( .BOTH. , #106 ) ;
#205 = VERTEX_POINT ( 'NONE', #69 ) ;
#206 = FACE_OUTER_BOUND ( 'NONE', #29, .T. ) ;
#207 = VECTOR ( 'NONE', #212, 1000.000000000000000 ) ;
#208 = STYLED_ITEM ( 'NONE', ( #132 ), #176 ) ;
#209 = ORIENTED_EDGE ( 'NONE', *, *, #78, .F. ) ;
#210 = DIRECTION ( 'NONE',  ( -0.000000000000000000, -0.000000000000000000, 1.000000000000000000 ) ) ;
#211 = APPLICATION_PROTOCOL_DEFINITION ( 'draft international standard', 'automotive_design', 1998, #126 ) ;
#212 = DIRECTION ( 'NONE',  ( 0.000000000000000000, -1.000000000000000000, 0.000000000000000000 ) ) ;
#213 = VECTOR ( 'NONE', #6, 1000.000000000000000 ) ;
#214 = ORIENTED_EDGE ( 'NONE', *, *, #90, .T. ) ;
#215 = SURFACE_SIDE_STYLE ('',( #181 ) ) ;
#216 = PRESENTATION_STYLE_ASSIGNMENT (( #117 ) ) ;
#217 = PRODUCT_DEFINITION_SHAPE ( 'NONE', 'NONE',  #38 ) ;
#218 = VECTOR ( 'NONE', #210, 1000.000000000000000 ) ;
#219 = DIRECTION ( 'NONE',  ( 0.000000000000000000, 0.000000000000000000, -1.000000000000000000 ) ) ;
#220 = LINE ( 'NONE', #81, #98 ) ;
#221 = ORIENTED_EDGE ( 'NONE', *, *, #90, .F. ) ;
#222 = ORIENTED_EDGE ( 'NONE', *, *, #25, .T. ) ;
#223 = VERTEX_POINT ( 'NONE', #166 ) ;
#224 = ORIENTED_EDGE ( 'NONE', *, *, #225, .T. ) ;
#225 = EDGE_CURVE ( 'NONE', #205, #31, #67, .T. ) ;
#226 = SURFACE_STYLE_FILL_AREA ( #150 ) ;
#227 = PLANE ( 'NONE',  #167 ) ;
#228 = DIRECTION ( 'NONE',  ( -1.000000000000000000, -0.000000000000000000, 0.000000000000000000 ) ) ;
#229 = PRESENTATION_LAYER_ASSIGNMENT (  '', '', ( #208 ) ) ;
#230 = STYLED_ITEM ( 'NONE', ( #216 ), #159 ) ;
#231 = FACE_OUTER_BOUND ( 'NONE', #95, .T. ) ;
#232 = DIRECTION ( 'NONE',  ( 0.000000000000000000, 1.000000000000000000, 0.000000000000000000 ) ) ;
ENDSEC;
END-ISO-10303-21;
